  0
SECTION
  2
HEADER
  9
$ACADVER
  1
AC1009
  9
$INSBASE
 10
-1.105258265255306
 20
2.413043478257691
 30
0.0
  9
$EXTMIN
 10
-1.105258265255306
 20
2.413043478257691
 30
0.0
  9
$EXTMAX
 10
69.21524981043313
 20
43.41304347825527
 30
0.0
  9
$LIMMIN
 10
0.0
 20
0.0
  9
$LIMMAX
 10
420.0
 20
297.0
  9
$ORTHOMODE
 70
     0
  9
$REGENMODE
 70
     0
  9
$FILLMODE
 70
     1
  9
$QTEXTMODE
 70
     0
  9
$MIRRTEXT
 70
     0
  9
$DRAGMODE
 70
     2
  9
$LTSCALE
 40
1.0
  9
$OSMODE
 70
     0
  9
$ATTMODE
 70
     1
  9
$TEXTSIZE
 40
3.5
  9
$TRACEWID
 40
0.1
  9
$TEXTSTYLE
  7
STANDARD
  9
$CLAYER
  8
0
  9
$CELTYPE
  6
BYLAYER
  9
$CECOLOR
 62
   256
  9
$DIMSCALE
 40
1.0
  9
$DIMASZ
 40
2.0
  9
$DIMEXO
 40
1.0
  9
$DIMDLI
 40
8.0
  9
$DIMRND
 40
0.0
  9
$DIMDLE
 40
0.0
  9
$DIMEXE
 40
2.0
  9
$DIMTP
 40
0.1
  9
$DIMTM
 40
0.1
  9
$DIMTXT
 40
3.5
  9
$DIMCEN
 40
2.0
  9
$DIMTSZ
 40
0.0
  9
$DIMTOL
 70
     0
  9
$DIMLIM
 70
     0
  9
$DIMTIH
 70
     0
  9
$DIMTOH
 70
     0
  9
$DIMSE1
 70
     0
  9
$DIMSE2
 70
     0
  9
$DIMTAD
 70
     1
  9
$DIMZIN
 70
     0
  9
$DIMBLK
  1

  9
$DIMASO
 70
     1
  9
$DIMSHO
 70
     0
  9
$DIMPOST
  1

  9
$DIMAPOST
  1

  9
$DIMALT
 70
     0
  9
$DIMALTD
 70
     2
  9
$DIMALTF
 40
25.39999999999999
  9
$DIMLFAC
 40
1.0
  9
$DIMTOFL
 70
     0
  9
$DIMTVP
 40
0.0
  9
$DIMTIX
 70
     0
  9
$DIMSOXD
 70
     0
  9
$DIMSAH
 70
     0
  9
$DIMBLK1
  1

  9
$DIMBLK2
  1

  9
$DIMSTYLE
  2
*UNNAMED
  9
$DIMCLRD
 70
     0
  9
$DIMCLRE
 70
     0
  9
$DIMCLRT
 70
     0
  9
$DIMTFAC
 40
1.0
  9
$DIMGAP
 40
0.09
  9
$LUNITS
 70
     2
  9
$LUPREC
 70
     3
  9
$SKETCHINC
 40
0.1
  9
$FILLETRAD
 40
20.0
  9
$AUNITS
 70
     0
  9
$AUPREC
 70
     1
  9
$MENU
  1

  9
$ELEVATION
 40
0.0
  9
$PELEVATION
 40
0.0
  9
$THICKNESS
 40
0.0
  9
$LIMCHECK
 70
     0
  9
$BLIPMODE
 70
     0
  9
$CHAMFERA
 40
0.0
  9
$CHAMFERB
 40
0.0
  9
$SKPOLY
 70
     1
  9
$TDCREATE
 40
2448530.519345948
  9
$TDUPDATE
 40
2449393.434318865
  9
$TDINDWG
 40
0.0007190972
  9
$TDUSRTIMER
 40
0.0007190972
  9
$USRTIMER
 70
     1
  9
$ANGBASE
 50
0.0
  9
$ANGDIR
 70
     0
  9
$PDMODE
 70
     0
  9
$PDSIZE
 40
0.0
  9
$PLINEWID
 40
0.0
  9
$COORDS
 70
     2
  9
$SPLFRAME
 70
     0
  9
$SPLINETYPE
 70
     6
  9
$SPLINESEGS
 70
     8
  9
$ATTDIA
 70
     1
  9
$ATTREQ
 70
     1
  9
$HANDLING
 70
     0
  9
$HANDSEED
  5
D9
  9
$SURFTAB1
 70
     6
  9
$SURFTAB2
 70
     6
  9
$SURFTYPE
 70
     6
  9
$SURFU
 70
     6
  9
$SURFV
 70
     6
  9
$UCSNAME
  2

  9
$UCSORG
 10
0.0
 20
0.0
 30
0.0
  9
$UCSXDIR
 10
1.0
 20
0.0
 30
0.0
  9
$UCSYDIR
 10
0.0
 20
1.0
 30
0.0
  9
$PUCSNAME
  2

  9
$PUCSORG
 10
0.0
 20
0.0
 30
0.0
  9
$PUCSXDIR
 10
1.0
 20
0.0
 30
0.0
  9
$PUCSYDIR
 10
0.0
 20
1.0
 30
0.0
  9
$USERI1
 70
     0
  9
$USERI2
 70
     3
  9
$USERI3
 70
    15
  9
$USERI4
 70
     0
  9
$USERI5
 70
     0
  9
$USERR1
 40
1.0
  9
$USERR2
 40
1.0
  9
$USERR3
 40
0.0
  9
$USERR4
 40
1.0
  9
$USERR5
 40
0.0
  9
$WORLDVIEW
 70
     1
  9
$SHADEDGE
 70
     3
  9
$SHADEDIF
 70
    70
  9
$TILEMODE
 70
     1
  9
$MAXACTVP
 70
    16
  9
$PINSBASE
 10
0.0
 20
0.0
 30
0.0
  9
$PLIMCHECK
 70
     0
  9
$PEXTMIN
 10
1.000000000000000E+20
 20
1.000000000000000E+20
 30
1.000000000000000E+20
  9
$PEXTMAX
 10
-1.000000000000000E+20
 20
-1.000000000000000E+20
 30
-1.000000000000000E+20
  9
$PLIMMIN
 10
0.0
 20
0.0
  9
$PLIMMAX
 10
12.0
 20
9.0
  9
$UNITMODE
 70
     0
  9
$VISRETAIN
 70
     0
  9
$PLINEGEN
 70
     0
  9
$PSLTSCALE
 70
     0
  9
$TREEDEPTH
 70
  3020
  9
$DWGCODEPAGE
  3
undefined
  0
ENDSEC
  0
SECTION
  2
TABLES
  0
TABLE
  2
VPORT
 70
     2
  0
VPORT
  2
*ACTIVE
 70
     0
 10
0.0
 20
0.0
 11
1.0
 21
1.0
 12
34.05499577258891
 22
29.97510702487286
 13
0.0
 23
0.0
 14
1.0
 24
1.0
 15
10.0
 25
10.0
 16
0.0
 26
0.0
 36
1.0
 17
0.0
 27
0.0
 37
0.0
 40
55.12412709323034
 41
1.275675675675675
 42
50.0
 43
0.0
 44
0.0
 50
0.0
 51
0.0
 71
     0
 72
   100
 73
     1
 74
     1
 75
     0
 76
     0
 77
     0
 78
     0
  0
ENDTAB
  0
TABLE
  2
LTYPE
 70
     3
  0
LTYPE
  2
AUSGEZOGEN
 70
    64
  3
Solid line
 72
    65
 73
     0
 40
0.0
  0
LTYPE
  2
ITEM-STRICH
 70
    64
  3
- - - - -
 72
    65
 73
     2
 40
1.5
 49
1.2
 49
-0.3
  0
LTYPE
  2
ITEM-STRICHPUNKT
 70
    64
  3
__ . __ . __
 72
    65
 73
     4
 40
3.599999999999999
 49
2.399999999999999
 49
-0.6
 49
0.0
 49
-0.6
  0
ENDTAB
  0
TABLE
  2
LAYER
 70
     5
  0
LAYER
  2
0
 70
     0
 62
     7
  6
AUSGEZOGEN
  0
LAYER
  2
ITEM_50
 70
    64
 62
     7
  6
AUSGEZOGEN
  0
LAYER
  2
ITEM_25
 70
    64
 62
     3
  6
AUSGEZOGEN
  0
LAYER
  2
ITEM_STP
 70
    64
 62
     4
  6
ITEM-STRICHPUNKT
  0
LAYER
  2
ITEM_GSTR
 70
    64
 62
     6
  6
ITEM-STRICH
  0
ENDTAB
  0
TABLE
  2
STYLE
 70
     1
  0
STYLE
  2
STANDARD
 70
     0
 40
0.0
 41
1.0
 50
0.0
 71
     0
 42
3.5
  3
iso
  4

  0
ENDTAB
  0
TABLE
  2
VIEW
 70
     0
  0
ENDTAB
  0
TABLE
  2
UCS
 70
     0
  0
ENDTAB
  0
TABLE
  2
APPID
 70
     1
  0
APPID
  2
ACAD
 70
    64
  0
ENDTAB
  0
TABLE
  2
DIMSTYLE
 70
     0
  0
ENDTAB
  0
ENDSEC
  0
SECTION
  2
BLOCKS
  0
ENDSEC
  0
SECTION
  2
ENTITIES
  0
LINE
  8
ITEM_STP
 10
61.21524981043313
 20
43.41304347825252
 30
0.0
 11
61.2152498104331
 21
23.41304347825252
 31
0.0
  0
LINE
  8
ITEM_50
 10
57.21524981043313
 20
34.61304347825254
 30
0.0
 11
57.21524981043313
 21
38.41304347825252
 31
0.0
  0
LINE
  8
ITEM_50
 10
53.21524981043313
 20
34.61304347825254
 30
0.0
 11
57.21524981043313
 21
34.61304347825254
 31
0.0
  0
LINE
  8
ITEM_50
 10
53.21524981043313
 20
32.41304347825252
 30
0.0
 11
53.21524981043313
 21
34.61304347825254
 31
0.0
  0
LINE
  8
ITEM_50
 10
56.04367693517929
 20
29.58461635350634
 30
0.0
 11
53.21524981043313
 21
32.41304347825252
 31
0.0
  0
LINE
  8
ITEM_50
 10
63.5583955609407
 20
28.41304347825252
 30
0.0
 11
58.8721040599255
 21
28.41304347825252
 31
0.0
  0
LINE
  8
ITEM_50
 10
69.21524981043313
 20
32.41304347825252
 30
0.0
 11
66.38682268568689
 21
29.58461635350631
 31
0.0
  0
LINE
  8
ITEM_50
 10
69.21524981043313
 20
34.61304347825254
 30
0.0
 11
69.21524981043313
 21
32.41304347825252
 31
0.0
  0
LINE
  8
ITEM_50
 10
65.21524981043313
 20
34.61304347825254
 30
0.0
 11
69.21524981043313
 21
34.61304347825254
 31
0.0
  0
LINE
  8
ITEM_50
 10
65.21524981043313
 20
38.41304347825252
 30
0.0
 11
65.21524981043313
 21
34.61304347825254
 31
0.0
  0
LINE
  8
ITEM_50
 10
57.21524981043313
 20
38.41304347825252
 30
0.0
 11
65.21524981043313
 21
38.41304347825252
 31
0.0
  0
ARC
  8
ITEM_50
 10
58.8721040599255
 20
32.41304347825252
 30
0.0
 40
4.0
 50
224.9999999999998
 51
270.0
  0
ARC
  8
ITEM_50
 10
63.5583955609407
 20
32.41304347825252
 30
0.0
 40
4.0
 50
270.0
 51
314.9999999999997
  0
LINE
  8
ITEM_STP
 10
20.54537682934965
 20
25.91304347825875
 30
0.0
 11
-1.105258265255306
 21
38.41304347825441
 31
0.0
  0
LINE
  8
ITEM_STP
 10
28.21524981042757
 20
23.41304347825524
 30
0.0
 11
28.215249810427
 21
43.41304347825527
 31
0.0
  0
LINE
  8
ITEM_GSTR
 10
3.215249810427232
 20
34.41304347825456
 30
0.0
 11
43.21524981042725
 21
34.41304347825567
 31
0.0
  0
LINE
  8
ITEM_GSTR
 10
43.21524981042732
 20
32.21304347825568
 30
0.0
 11
3.215249810427295
 21
32.21304347825454
 31
0.0
  0
LINE
  8
ITEM_GSTR
 10
3.215249810427118
 20
38.41304347825456
 30
0.0
 11
43.21524981042714
 21
38.41304347825567
 31
0.0
  0
LINE
  8
ITEM_GSTR
 10
3.215249810427403
 20
28.41304347825456
 30
0.0
 11
3.215249810427118
 21
38.41304347825456
 31
0.0
  0
LINE
  8
ITEM_GSTR
 10
43.21524981042743
 20
28.41304347825567
 30
0.0
 11
3.215249810427403
 21
28.41304347825456
 31
0.0
  0
LINE
  8
ITEM_GSTR
 10
43.21524981042714
 20
38.41304347825567
 30
0.0
 11
43.21524981042743
 21
28.41304347825567
 31
0.0
  0
LINE
  8
ITEM_50
 10
27.34922440664298
 20
8.913043478257748
 30
0.0
 11
29.08127521421185
 21
8.913043478257748
 31
0.0
  0
LINE
  8
ITEM_50
 10
26.48319900285854
 20
10.41304347825774
 30
0.0
 11
27.34922440664298
 21
8.913043478257748
 31
0.0
  0
LINE
  8
ITEM_50
 10
27.34922440664298
 20
11.91304347825774
 30
0.0
 11
26.48319900285854
 21
10.41304347825774
 31
0.0
  0
LINE
  8
ITEM_50
 10
29.08127521421185
 20
11.91304347825774
 30
0.0
 11
27.34922440664298
 21
11.91304347825774
 31
0.0
  0
LINE
  8
ITEM_50
 10
29.9473006179963
 20
10.41304347825774
 30
0.0
 11
29.08127521421185
 21
11.91304347825774
 31
0.0
  0
LINE
  8
ITEM_50
 10
29.08127521421185
 20
8.913043478257748
 30
0.0
 11
29.9473006179963
 21
10.41304347825774
 31
0.0
  0
LINE
  8
ITEM_STP
 10
16.21524981042738
 20
10.41304347825771
 30
0.0
 11
16.21524981042738
 21
13.89494205373688
 31
0.0
  0
LINE
  8
ITEM_STP
 10
16.21524981042738
 20
10.41304347825771
 30
0.0
 11
22.86608108962182
 21
10.41304347825771
 31
0.0
  0
LINE
  8
ITEM_STP
 10
16.21524981042738
 20
10.41304347825771
 30
0.0
 11
16.21524981042738
 21
6.931144902778555
 31
0.0
  0
LINE
  8
ITEM_STP
 10
16.21524981042738
 20
10.41304347825771
 30
0.0
 11
1.828865617854674
 21
10.41304347825771
 31
0.0
  0
POLYLINE
  8
ITEM_50
 66
     1
 10
0.0
 20
0.0
 30
0.0
 70
     1
  0
VERTEX
  8
ITEM_50
 10
16.21524981042738
 20
12.91304347825743
 30
0.0
 42
0.1747045211894592
 50
180.0
  0
VERTEX
  8
ITEM_50
 10
16.02609022343337
 20
12.8448685968967
 30
0.0
 42
0.1042029417663473
 50
180.0
  0
VERTEX
  8
ITEM_50
 10
15.60180323415146
 20
12.31075702406775
 30
0.0
 42
0.0649481016501196
 70
     2
 50
243.4349488229993
  0
VERTEX
  8
ITEM_50
 10
15.32918098950973
 20
11.52493435850706
 30
0.0
 42
0.0510992989619081
 50
243.4349488229993
  0
VERTEX
  8
ITEM_50
 10
15.21524981043252
 20
10.4130434782576
 30
0.0
 42
0.0510992989619169
 50
180.0
  0
VERTEX
  8
ITEM_50
 10
15.32918098950976
 20
9.301152598008059
 30
0.0
 42
0.0649481016501182
 50
180.0
  0
VERTEX
  8
ITEM_50
 10
15.60180323415146
 20
8.515329932447457
 30
0.0
 42
0.1042029417663472
 70
     2
 50
296.5650511770006
  0
VERTEX
  8
ITEM_50
 10
16.02609022343337
 20
7.981218359618509
 30
0.0
 42
0.1747045211894599
 50
296.5650511770006
  0
VERTEX
  8
ITEM_50
 10
16.21524981042738
 20
7.913043478257776
 30
0.0
 42
0.174704521189477
 50
180.0
  0
VERTEX
  8
ITEM_50
 10
16.40440939742141
 20
7.981218359618537
 30
0.0
 42
0.1042029417663452
 50
180.0
  0
VERTEX
  8
ITEM_50
 10
16.82869638670329
 20
8.515329932447457
 30
0.0
 42
0.0649481016501228
 70
     2
 50
63.43494882299929
  0
VERTEX
  8
ITEM_50
 10
17.10131863134502
 20
9.301152598008172
 30
0.0
 42
0.0510992989619094
 50
63.43494882299929
  0
VERTEX
  8
ITEM_50
 10
17.21524981042223
 20
10.4130434782576
 30
0.0
 42
0.0510992989619081
 50
180.0
  0
VERTEX
  8
ITEM_50
 10
17.10131863134502
 20
11.52493435850706
 30
0.0
 42
0.0649481016501196
 50
180.0
  0
VERTEX
  8
ITEM_50
 10
16.82869638670329
 20
12.31075702406775
 30
0.0
 42
0.1042029417663303
 70
     2
 50
116.5650511770006
  0
VERTEX
  8
ITEM_50
 10
16.40440939742141
 20
12.84486859689667
 30
0.0
 42
0.1747045211894571
 50
116.5650511770006
  0
SEQEND
  8
ITEM_50
  0
LINE
  8
ITEM_STP
 10
28.2152498104274
 20
6.813043478257753
 30
0.0
 11
28.2152498104274
 21
14.01304347825774
 31
0.0
  0
LINE
  8
ITEM_STP
 10
24.61524981042741
 20
10.41304347825774
 30
0.0
 11
31.8152498104274
 21
10.41304347825774
 31
0.0
  0
CIRCLE
  8
ITEM_50
 10
28.2152498104274
 20
10.41304347825774
 30
0.0
 40
3.0
  0
ARC
  8
ITEM_25
 10
28.2152498104274
 20
10.41304347825774
 30
0.0
 40
2.300000000000006
 50
350.9999999999997
 51
278.9999999999998
  0
LINE
  8
ITEM_GSTR
 10
3.21524981042738
 20
18.41304347825771
 30
0.0
 11
43.2152498104274
 21
18.41304347825769
 31
0.0
  0
LINE
  8
ITEM_GSTR
 10
3.21524981042738
 20
2.413043478257719
 30
0.0
 11
3.21524981042738
 21
6.413043478257748
 31
0.0
  0
LINE
  8
ITEM_GSTR
 10
43.2152498104274
 20
2.413043478257691
 30
0.0
 11
3.21524981042738
 21
2.413043478257719
 31
0.0
  0
LINE
  8
ITEM_GSTR
 10
43.2152498104274
 20
18.41304347825769
 30
0.0
 11
43.2152498104274
 21
14.41304347825769
 31
0.0
  0
LINE
  8
ITEM_50
 10
3.21524981042738
 20
6.413043478257748
 30
0.0
 11
3.21524981042738
 21
14.41304347825771
 31
0.0
  0
LINE
  8
ITEM_GSTR
 10
3.21524981042738
 20
14.41304347825771
 30
0.0
 11
3.21524981042738
 21
18.41304347825771
 31
0.0
  0
LINE
  8
ITEM_50
 10
3.21524981042738
 20
14.41304347825771
 30
0.0
 11
43.2152498104274
 21
14.41304347825769
 31
0.0
  0
LINE
  8
ITEM_50
 10
43.2152498104274
 20
14.41304347825769
 30
0.0
 11
43.2152498104274
 21
6.413043478257719
 31
0.0
  0
LINE
  8
ITEM_GSTR
 10
43.2152498104274
 20
6.413043478257719
 30
0.0
 11
43.2152498104274
 21
2.413043478257691
 31
0.0
  0
LINE
  8
ITEM_50
 10
43.2152498104274
 20
6.413043478257691
 30
0.0
 11
3.21524981042738
 21
6.413043478257719
 31
0.0
  0
ARC
  8
ITEM_50
 10
16.21524981042738
 20
1.447812948223607
 30
0.0
 40
11.96523053003411
 50
90.0
 51
101.7009195081661
  0
ARC
  8
ITEM_50
 10
15.29556215907629
 20
5.888457750297019
 30
0.0
 40
7.430348874000596
 50
101.7009195081669
 51
116.5650511771023
  0
ARC
  8
ITEM_50
 10
13.8994737455015
 20
8.680634577443653
 30
0.0
 40
4.308600278650157
 50
116.5650511771022
 51
140.3607277622737
  0
ARC
  8
ITEM_50
 10
11.80827121353863
 20
10.41304347825771
 30
0.0
 40
1.593021403104891
 50
140.3607277622724
 51
180.0
  0
ARC
  8
ITEM_50
 10
11.80827121353862
 20
10.41304347825771
 30
0.0
 40
1.593021403104875
 50
180.0
 51
219.6392722377293
  0
ARC
  8
ITEM_50
 10
13.89947374550148
 20
12.14545237907175
 30
0.0
 40
4.308600278650118
 50
219.6392722377266
 51
243.4349488228976
  0
ARC
  8
ITEM_50
 10
15.2955621590763
 20
14.93762920621842
 30
0.0
 40
7.430348874000605
 50
243.4349488228976
 51
258.2990804918318
  0
ARC
  8
ITEM_50
 10
16.21524981042738
 20
19.37827400829187
 30
0.0
 40
11.96523053003415
 50
258.2990804918332
 51
270.0
  0
ARC
  8
ITEM_50
 10
16.21524981042738
 20
19.37827400829155
 30
0.0
 40
11.96523053003383
 50
270.0
 51
281.7009195081662
  0
ARC
  8
ITEM_50
 10
17.13493746177854
 20
14.93762920621825
 30
0.0
 40
7.430348874000417
 50
281.7009195081664
 51
296.5650511771023
  0
ARC
  8
ITEM_50
 10
18.53102587535325
 20
12.14545237907178
 30
0.0
 40
4.30860027865016
 50
296.5650511771023
 51
320.3607277622737
  0
ARC
  8
ITEM_50
 10
20.62222840731612
 20
10.41304347825771
 30
0.0
 40
1.593021403104891
 50
320.3607277622725
 51
0.0
  0
ARC
  8
ITEM_50
 10
20.62222840731604
 20
10.41304347825771
 30
0.0
 40
1.59302140310497
 50
0.0
 51
39.63927223772648
  0
ARC
  8
ITEM_50
 10
18.53102587535315
 20
8.680634577443456
 30
0.0
 40
4.308600278650378
 50
39.63927223772773
 51
63.43494882289766
  0
ARC
  8
ITEM_50
 10
17.13493746177862
 20
5.88845775029735
 30
0.0
 40
7.430348874000228
 50
63.43494882289766
 51
78.29908049183414
  0
ARC
  8
ITEM_50
 10
16.21524981042738
 20
1.447812948224163
 30
0.0
 40
11.96523053003355
 50
78.2990804918336
 51
90.0
  0
ARC
  8
ITEM_50
 10
16.21524981042738
 20
12.61653277671056
 30
0.0
 40
0.7965107015468735
 50
90.0
 51
129.6392722378511
  0
ARC
  8
ITEM_50
 10
17.08145426084151
 20
11.57093151072521
 30
0.0
 40
2.154300139327052
 50
129.6392722378508
 51
153.4349488230113
  0
ARC
  8
ITEM_50
 10
18.47754267442638
 20
10.87288730393512
 30
0.0
 40
3.715174437013812
 50
153.4349488230113
 51
168.2990804918845
  0
ARC
  8
ITEM_50
 10
20.69786507548247
 20
10.4130434782576
 30
0.0
 40
5.982615265049954
 50
168.2990804918849
 51
180.0
  0
ARC
  8
ITEM_50
 10
20.69786507548197
 20
10.4130434782576
 30
0.0
 40
5.982615265049446
 50
180.0
 51
191.7009195081168
  0
ARC
  8
ITEM_50
 10
18.47754267442611
 20
9.953199652579948
 30
0.0
 40
3.71517443701351
 50
191.7009195081156
 51
206.5650511769886
  0
ARC
  8
ITEM_50
 10
17.0814542608415
 20
9.255155445789998
 30
0.0
 40
2.154300139327048
 50
206.5650511769886
 51
230.3607277621491
  0
ARC
  8
ITEM_50
 10
16.21524981042738
 20
8.20955417980465
 30
0.0
 40
0.7965107015468736
 50
230.3607277621488
 51
270.0
  0
ARC
  8
ITEM_50
 10
16.21524981042738
 20
8.209554179804634
 30
0.0
 40
0.7965107015468575
 50
270.0
 51
309.6392722378547
  0
ARC
  8
ITEM_50
 10
15.34904536001328
 20
9.255155445789981
 30
0.0
 40
2.154300139327008
 50
309.6392722378514
 51
333.4349488230113
  0
ARC
  8
ITEM_50
 10
13.95295694642852
 20
9.953199652580009
 30
0.0
 40
3.715174437013643
 50
333.4349488230113
 51
348.2990804918856
  0
ARC
  8
ITEM_50
 10
11.73263454537256
 20
10.4130434782576
 30
0.0
 40
5.982615265049675
 50
348.2990804918846
 51
0.0
  0
ARC
  8
ITEM_50
 10
11.73263454537228
 20
10.4130434782576
 30
0.0
 40
5.982615265049952
 50
0.0
 51
11.70091950811505
  0
ARC
  8
ITEM_50
 10
13.95295694642836
 20
10.87288730393512
 30
0.0
 40
3.715174437013826
 50
11.70091950811551
 51
26.56505117698867
  0
ARC
  8
ITEM_50
 10
15.3490453600131
 20
11.57093151072513
 30
0.0
 40
2.154300139327218
 50
26.56505117698864
 51
50.36072776214566
  0
ARC
  8
ITEM_50
 10
16.21524981042738
 20
12.61653277671049
 30
0.0
 40
0.7965107015469373
 50
50.36072776214733
 51
90.0
  0
ENDSEC
  0
EOF
